ISO-10303-21;
HEADER;
FILE_DESCRIPTION (( 'STEP AP203' ),
    '1' );
FILE_NAME ('Q-AZHWP-12.7-1053-M.STEP',
    '2020-12-22T09:06:30',
    ( '' ),
    ( '' ),
    'SwSTEP 2.0',
    'SolidWorks 2020',
    '' );
FILE_SCHEMA (( 'CONFIG_CONTROL_DESIGN' ));
ENDSEC;

DATA;
#1 = VERTEX_POINT ( 'NONE', #320 ) ;
#2 = CARTESIAN_POINT ( 'NONE',  ( -3.000000000000000000, 0.000000000000000000, 0.000000000000000000 ) ) ;
#3 = ORIENTED_EDGE ( 'NONE', *, *, #232, .F. ) ;
#4 = FACE_BOUND ( 'NONE', #309, .T. ) ;
#5 = VERTEX_POINT ( 'NONE', #192 ) ;
#6 = COORDINATED_UNIVERSAL_TIME_OFFSET ( 8, 0, .AHEAD. ) ;
#7 = ORIENTED_EDGE ( 'NONE', *, *, #121, .T. ) ;
#8 = DATE_AND_TIME ( #262, #55 ) ;
#9 = VERTEX_POINT ( 'NONE', #84 ) ;
#10 = AXIS2_PLACEMENT_3D ( 'NONE', #120, #275, #246 ) ;
#11 = APPROVAL_DATE_TIME ( #288, #113 ) ;
#12 = ORIENTED_EDGE ( 'NONE', *, *, #87, .F. ) ;
#13 = SECURITY_CLASSIFICATION_LEVEL ( 'unclassified' ) ;
#14 = CARTESIAN_POINT ( 'NONE',  ( 1.500000000000000444, 6.349999999999999645, 0.000000000000000000 ) ) ;
#15 = DIRECTION ( 'NONE',  ( 1.000000000000000000, 0.000000000000000000, 0.000000000000000000 ) ) ;
#16 = EDGE_CURVE ( 'NONE', #184, #313, #146, .T. ) ;
#17 = AXIS2_PLACEMENT_3D ( 'NONE', #2, #29, #26 ) ;
#18 = CYLINDRICAL_SURFACE ( 'NONE', #10, 6.349999999999999645 ) ;
#19 = FACE_OUTER_BOUND ( 'NONE', #289, .T. ) ;
#20 = DIRECTION ( 'NONE',  ( 1.000000000000000000, 0.000000000000000000, 0.000000000000000000 ) ) ;
#21 = VECTOR ( 'NONE', #197, 1000.000000000000000 ) ;
#22 = CARTESIAN_POINT ( 'NONE',  ( -1.614212418857619014, 0.000000000000000000, 12.69999999999999929 ) ) ;
#23 = PLANE ( 'NONE',  #301 ) ;
#24 = CARTESIAN_POINT ( 'NONE',  ( 3.000000000000000000, 12.69999999999999929, 0.000000000000000000 ) ) ;
#25 = ORIENTED_EDGE ( 'NONE', *, *, #209, .T. ) ;
#26 = DIRECTION ( 'NONE',  ( 0.000000000000000000, 0.000000000000000000, 1.000000000000000000 ) ) ;
#27 = CC_DESIGN_APPROVAL ( #333, ( #274 ) ) ;
#28 = ORIENTED_EDGE ( 'NONE', *, *, #132, .F. ) ;
#29 = DIRECTION ( 'NONE',  ( -1.000000000000000000, -0.000000000000000000, -0.000000000000000000 ) ) ;
#30 = EDGE_CURVE ( 'NONE', #1, #218, #267, .T. ) ;
#31 = CARTESIAN_POINT ( 'NONE',  ( -3.000000000000000000, 1.555301434917138433E-15, -12.69999999999999929 ) ) ;
#32 = CC_DESIGN_APPROVAL ( #113, ( #324 ) ) ;
#33 = PERSON_AND_ORGANIZATION ( #190, #39 ) ;
#34 = DIRECTION ( 'NONE',  ( -1.000000000000000000, -0.000000000000000000, -0.000000000000000000 ) ) ;
#35 = APPROVAL_STATUS ( 'not_yet_approved' ) ;
#36 = EDGE_LOOP ( 'NONE', ( #54, #110, #71, #311 ) ) ;
#37 = ORIENTED_EDGE ( 'NONE', *, *, #74, .T. ) ;
#38 = PLANE ( 'NONE',  #273 ) ;
#39 = ORGANIZATION ( 'UNSPECIFIED', 'UNSPECIFIED', '' ) ;
#40 = LINE ( 'NONE', #94, #181 ) ;
#41 = CARTESIAN_POINT ( 'NONE',  ( -3.000000000000000000, 6.349999999999999645, 0.000000000000000000 ) ) ;
#42 = DIRECTION ( 'NONE',  ( -1.000000000000000000, -0.000000000000000000, -0.000000000000000000 ) ) ;
#43 = DIRECTION ( 'NONE',  ( 1.000000000000000000, 0.000000000000000000, 0.000000000000000000 ) ) ;
#44 = EDGE_CURVE ( 'NONE', #208, #5, #195, .T. ) ;
#45 = APPLICATION_PROTOCOL_DEFINITION ( 'international standard', 'config_control_design', 1994, #66 ) ;
#46 = FACE_OUTER_BOUND ( 'NONE', #266, .T. ) ;
#47 = VERTEX_POINT ( 'NONE', #296 ) ;
#48 = AXIS2_PLACEMENT_3D ( 'NONE', #90, #65, #227 ) ;
#49 = CARTESIAN_POINT ( 'NONE',  ( 1.500000000000000888, 0.000000000000000000, 0.000000000000000000 ) ) ;
#50 = CC_DESIGN_PERSON_AND_ORGANIZATION_ASSIGNMENT ( #264, #238, ( #324 ) ) ;
#51 = CYLINDRICAL_SURFACE ( 'NONE', #93, 6.349999999999999645 ) ;
#52 = ADVANCED_FACE ( 'NONE', ( #116 ), #38, .F. ) ;
#53 = DATE_TIME_ROLE ( 'classification_date' ) ;
#54 = ORIENTED_EDGE ( 'NONE', *, *, #58, .F. ) ;
#55 = LOCAL_TIME ( 17, 6, 30.00000000000000000, #78 ) ;
#56 = ORIENTED_EDGE ( 'NONE', *, *, #16, .F. ) ;
#57 = CALENDAR_DATE ( 2020, 22, 12 ) ;
#58 = EDGE_CURVE ( 'NONE', #231, #128, #316, .T. ) ;
#59 = AXIS2_PLACEMENT_3D ( 'NONE', #127, #179, #256 ) ;
#60 = DIRECTION ( 'NONE',  ( -0.000000000000000000, 0.000000000000000000, 1.000000000000000000 ) ) ;
#61 = DIRECTION ( 'NONE',  ( 0.000000000000000000, 0.000000000000000000, 1.000000000000000000 ) ) ;
#62 = EDGE_CURVE ( 'NONE', #128, #9, #222, .T. ) ;
#63 = CARTESIAN_POINT ( 'NONE',  ( 3.000000000000000888, 0.000000000000000000, 6.349999999999999645 ) ) ;
#64 = DIRECTION ( 'NONE',  ( 0.000000000000000000, 0.000000000000000000, 1.000000000000000000 ) ) ;
#65 = DIRECTION ( 'NONE',  ( -1.000000000000000000, -0.000000000000000000, -0.000000000000000000 ) ) ;
#66 = APPLICATION_CONTEXT ( 'configuration controlled 3d designs of mechanical parts and assemblies' ) ;
#67 = DIRECTION ( 'NONE',  ( -1.000000000000000000, -0.000000000000000000, -0.000000000000000000 ) ) ;
#68 = DIRECTION ( 'NONE',  ( 0.000000000000000000, 0.000000000000000000, 1.000000000000000000 ) ) ;
#69 = ADVANCED_FACE ( 'NONE', ( #261 ), #292, .F. ) ;
#70 = CARTESIAN_POINT ( 'NONE',  ( -2.999999999999999556, 7.776507174585692163E-16, -6.349999999999999645 ) ) ;
#71 = ORIENTED_EDGE ( 'NONE', *, *, #99, .T. ) ;
#72 = AXIS2_PLACEMENT_3D ( 'NONE', #80, #34, #196 ) ;
#73 = ORIENTED_EDGE ( 'NONE', *, *, #132, .T. ) ;
#74 = EDGE_CURVE ( 'NONE', #315, #141, #253, .T. ) ;
#75 = ORIENTED_EDGE ( 'NONE', *, *, #331, .F. ) ;
#76 = APPROVAL_ROLE ( '' ) ;
#77 = CC_DESIGN_PERSON_AND_ORGANIZATION_ASSIGNMENT ( #33, #185, ( #229 ) ) ;
#78 = COORDINATED_UNIVERSAL_TIME_OFFSET ( 8, 0, .AHEAD. ) ;
#79 = AXIS2_PLACEMENT_3D ( 'NONE', #164, #15, #189 ) ;
#80 = CARTESIAN_POINT ( 'NONE',  ( 3.000000000000000000, 0.000000000000000000, 0.000000000000000000 ) ) ;
#81 = APPROVAL_PERSON_ORGANIZATION ( #210, #328, #240 ) ;
#82 = PERSON_AND_ORGANIZATION ( #190, #39 ) ;
#83 = ORIENTED_EDGE ( 'NONE', *, *, #287, .T. ) ;
#84 = CARTESIAN_POINT ( 'NONE',  ( 1.500000000000000888, 0.000000000000000000, 6.349999999999999645 ) ) ;
#85 = SHAPE_DEFINITION_REPRESENTATION ( #219, #150 ) ;
#86 = ORIENTED_EDGE ( 'NONE', *, *, #44, .F. ) ;
#87 = EDGE_CURVE ( 'NONE', #313, #184, #278, .T. ) ;
#88 = CARTESIAN_POINT ( 'NONE',  ( -1.614212418857619014, 0.000000000000000000, 6.349999999999999645 ) ) ;
#89 = PRODUCT_RELATED_PRODUCT_CATEGORY ( 'detail', '', ( #159 ) ) ;
#90 = CARTESIAN_POINT ( 'NONE',  ( -3.000000000000000000, 0.000000000000000000, 0.000000000000000000 ) ) ;
#91 = AXIS2_PLACEMENT_3D ( 'NONE', #200, #325, #223 ) ;
#92 = AXIS2_PLACEMENT_3D ( 'NONE', #228, #125, #233 ) ;
#93 = AXIS2_PLACEMENT_3D ( 'NONE', #307, #67, #68 ) ;
#94 = CARTESIAN_POINT ( 'NONE',  ( -1.614212418857619014, 1.555301434917138433E-15, -12.69999999999999929 ) ) ;
#95 = CARTESIAN_POINT ( 'NONE',  ( -1.614212418857619014, 0.000000000000000000, 0.000000000000000000 ) ) ;
#96 = DIRECTION ( 'NONE',  ( -1.000000000000000000, -0.000000000000000000, -0.000000000000000000 ) ) ;
#97 = VECTOR ( 'NONE', #235, 1000.000000000000000 ) ;
#98 = CARTESIAN_POINT ( 'NONE',  ( 3.000000000000000888, 7.776507174585692163E-16, -6.349999999999999645 ) ) ;
#99 = EDGE_CURVE ( 'NONE', #47, #9, #112, .T. ) ;
#100 = DIRECTION ( 'NONE',  ( 0.000000000000000000, 0.000000000000000000, 1.000000000000000000 ) ) ;
#101 = CARTESIAN_POINT ( 'NONE',  ( 3.000000000000000000, 1.555301434917138433E-15, -12.69999999999999929 ) ) ;
#102 = ORIENTED_EDGE ( 'NONE', *, *, #74, .F. ) ;
#103 = CIRCLE ( 'NONE', #239, 6.349999999999999645 ) ;
#104 = LOCAL_TIME ( 17, 6, 30.00000000000000000, #216 ) ;
#105 = DIRECTION ( 'NONE',  ( -1.000000000000000000, -0.000000000000000000, -0.000000000000000000 ) ) ;
#106 = ORIENTED_EDGE ( 'NONE', *, *, #230, .F. ) ;
#107 = ADVANCED_FACE ( 'NONE', ( #244 ), #23, .F. ) ;
#108 = PERSON_AND_ORGANIZATION ( #190, #39 ) ;
#109 = DATE_TIME_ROLE ( 'creation_date' ) ;
#110 = ORIENTED_EDGE ( 'NONE', *, *, #230, .T. ) ;
#111 = COORDINATED_UNIVERSAL_TIME_OFFSET ( 8, 0, .AHEAD. ) ;
#112 = CIRCLE ( 'NONE', #248, 6.349999999999999645 ) ;
#113 = APPROVAL ( #220, 'UNSPECIFIED' ) ;
#114 = ORIENTED_EDGE ( 'NONE', *, *, #58, .T. ) ;
#115 = DATE_AND_TIME ( #57, #126 ) ;
#116 = FACE_OUTER_BOUND ( 'NONE', #212, .T. ) ;
#117 = DIRECTION ( 'NONE',  ( 0.000000000000000000, 0.000000000000000000, 1.000000000000000000 ) ) ;
#118 = AXIS2_PLACEMENT_3D ( 'NONE', #24, #305, #203 ) ;
#119 = CC_DESIGN_DATE_AND_TIME_ASSIGNMENT ( #115, #53, ( #274 ) ) ;
#120 = CARTESIAN_POINT ( 'NONE',  ( -1.614212418857619014, 0.000000000000000000, 0.000000000000000000 ) ) ;
#121 = EDGE_CURVE ( 'NONE', #218, #1, #103, .T. ) ;
#122 = DIRECTION ( 'NONE',  ( 0.000000000000000000, 0.000000000000000000, -1.000000000000000000 ) ) ;
#123 = DIRECTION ( 'NONE',  ( -1.000000000000000000, -0.000000000000000000, -0.000000000000000000 ) ) ;
#124 = CARTESIAN_POINT ( 'NONE',  ( -1.614212418857619014, 7.776507174585692163E-16, -6.349999999999999645 ) ) ;
#125 = DIRECTION ( 'NONE',  ( -1.000000000000000000, -0.000000000000000000, -0.000000000000000000 ) ) ;
#126 = LOCAL_TIME ( 17, 6, 30.00000000000000000, #314 ) ;
#127 = CARTESIAN_POINT ( 'NONE',  ( -1.614212418857619014, 0.000000000000000000, 0.000000000000000000 ) ) ;
#128 = VERTEX_POINT ( 'NONE', #63 ) ;
#129 = CYLINDRICAL_SURFACE ( 'NONE', #59, 12.69999999999999929 ) ;
#130 = ORIENTED_EDGE ( 'NONE', *, *, #180, .T. ) ;
#131 =( NAMED_UNIT ( * ) SI_UNIT ( $, .STERADIAN. ) SOLID_ANGLE_UNIT ( ) );
#132 = EDGE_CURVE ( 'NONE', #5, #218, #174, .T. ) ;
#133 = DIRECTION ( 'NONE',  ( -1.000000000000000000, -0.000000000000000000, -0.000000000000000000 ) ) ;
#134 = ORIENTED_EDGE ( 'NONE', *, *, #271, .F. ) ;
#135 = CALENDAR_DATE ( 2020, 22, 12 ) ;
#136 = ORIENTED_EDGE ( 'NONE', *, *, #232, .T. ) ;
#137 = MANIFOLD_SOLID_BREP ( 'Ðý×', #290 ) ;
#138 = DIRECTION ( 'NONE',  ( 0.000000000000000000, 0.000000000000000000, 1.000000000000000000 ) ) ;
#139 = CARTESIAN_POINT ( 'NONE',  ( -1.614212418857619014, 0.000000000000000000, 0.000000000000000000 ) ) ;
#140 = APPROVAL_STATUS ( 'not_yet_approved' ) ;
#141 = VERTEX_POINT ( 'NONE', #149 ) ;
#142 = APPLICATION_PROTOCOL_DEFINITION ( 'international standard', 'config_control_design', 1994, #327 ) ;
#143 = DIRECTION ( 'NONE',  ( 0.000000000000000000, 0.000000000000000000, 1.000000000000000000 ) ) ;
#144 = CARTESIAN_POINT ( 'NONE',  ( 3.000000000000000888, 0.000000000000000000, 0.000000000000000000 ) ) ;
#145 = CARTESIAN_POINT ( 'NONE',  ( -2.999999999999999556, 0.000000000000000000, 0.000000000000000000 ) ) ;
#146 = CIRCLE ( 'NONE', #72, 12.69999999999999929 ) ;
#147 = CC_DESIGN_PERSON_AND_ORGANIZATION_ASSIGNMENT ( #312, #318, ( #229 ) ) ;
#148 = CIRCLE ( 'NONE', #258, 6.349999999999999645 ) ;
#149 = CARTESIAN_POINT ( 'NONE',  ( -3.000000000000000000, 0.000000000000000000, 12.69999999999999929 ) ) ;
#150 = ADVANCED_BREP_SHAPE_REPRESENTATION ( 'Q-AZHWP-12.7-1053-M', ( #137, #167 ), #284 ) ;
#151 = LINE ( 'NONE', #22, #187 ) ;
#152 = DIRECTION ( 'NONE',  ( 0.000000000000000000, 0.000000000000000000, 1.000000000000000000 ) ) ;
#153 = ADVANCED_FACE ( 'NONE', ( #19 ), #299, .T. ) ;
#154 = CARTESIAN_POINT ( 'NONE',  ( -1.500000000000000444, 0.000000000000000000, 0.000000000000000000 ) ) ;
#155 = CC_DESIGN_PERSON_AND_ORGANIZATION_ASSIGNMENT ( #108, #213, ( #159 ) ) ;
#156 = EDGE_LOOP ( 'NONE', ( #106, #75, #269, #83 ) ) ;
#157 = DIRECTION ( 'NONE',  ( 0.000000000000000000, 0.000000000000000000, -1.000000000000000000 ) ) ;
#158 = LINE ( 'NONE', #254, #97 ) ;
#159 = PRODUCT ( 'Q-AZHWP-12.7-1053-M', 'Q-AZHWP-12.7-1053-M', '', ( #163 ) ) ;
#160 = ORIENTED_EDGE ( 'NONE', *, *, #87, .T. ) ;
#161 = ADVANCED_FACE ( 'NONE', ( #172 ), #18, .F. ) ;
#162 = CIRCLE ( 'NONE', #280, 6.349999999999999645 ) ;
#163 = MECHANICAL_CONTEXT ( 'NONE', #66, 'mechanical' ) ;
#164 = CARTESIAN_POINT ( 'NONE',  ( -1.500000000000000444, 0.000000000000000000, 0.000000000000000000 ) ) ;
#165 = CALENDAR_DATE ( 2020, 22, 12 ) ;
#166 = EDGE_LOOP ( 'NONE', ( #28, #136, #319, #283 ) ) ;
#167 = AXIS2_PLACEMENT_3D ( 'NONE', #169, #138, #295 ) ;
#168 = ORIENTED_EDGE ( 'NONE', *, *, #44, .T. ) ;
#169 = CARTESIAN_POINT ( 'NONE',  ( 0.000000000000000000, 0.000000000000000000, 0.000000000000000000 ) ) ;
#170 = CARTESIAN_POINT ( 'NONE',  ( -2.999999999999999556, 0.000000000000000000, 0.000000000000000000 ) ) ;
#171 = DIRECTION ( 'NONE',  ( -1.000000000000000000, -0.000000000000000000, -0.000000000000000000 ) ) ;
#172 = FACE_OUTER_BOUND ( 'NONE', #36, .T. ) ;
#173 = APPROVAL_PERSON_ORGANIZATION ( #259, #333, #237 ) ;
#174 = LINE ( 'NONE', #124, #326 ) ;
#175 = DIRECTION ( 'NONE',  ( -1.000000000000000000, -0.000000000000000000, -0.000000000000000000 ) ) ;
#176 = CC_DESIGN_PERSON_AND_ORGANIZATION_ASSIGNMENT ( #82, #188, ( #274 ) ) ;
#177 = LINE ( 'NONE', #281, #250 ) ;
#178 = DIRECTION ( 'NONE',  ( 0.000000000000000000, 0.000000000000000000, 1.000000000000000000 ) ) ;
#179 = DIRECTION ( 'NONE',  ( -1.000000000000000000, -0.000000000000000000, -0.000000000000000000 ) ) ;
#180 = EDGE_CURVE ( 'NONE', #313, #315, #40, .T. ) ;
#181 = VECTOR ( 'NONE', #245, 1000.000000000000000 ) ;
#182 = ADVANCED_FACE ( 'NONE', ( #249, #303 ), #276, .F. ) ;
#183 = FACE_OUTER_BOUND ( 'NONE', #166, .T. ) ;
#184 = VERTEX_POINT ( 'NONE', #224 ) ;
#185 = PERSON_AND_ORGANIZATION_ROLE ( 'design_supplier' ) ;
#186 = AXIS2_PLACEMENT_3D ( 'NONE', #170, #270, #143 ) ;
#187 = VECTOR ( 'NONE', #123, 1000.000000000000000 ) ;
#188 = PERSON_AND_ORGANIZATION_ROLE ( 'classification_officer' ) ;
#189 = DIRECTION ( 'NONE',  ( 0.000000000000000000, 0.000000000000000000, -1.000000000000000000 ) ) ;
#190 = PERSON ( 'UNSPECIFIED', 'UNSPECIFIED', 'UNSPECIFIED', ('UNSPECIFIED'), ('UNSPECIFIED'), ('UNSPECIFIED') ) ;
#191 = DATE_AND_TIME ( #268, #104 ) ;
#192 = CARTESIAN_POINT ( 'NONE',  ( -1.500000000000000444, 7.776507174585692163E-16, -6.349999999999999645 ) ) ;
#193 = APPROVAL_DATE_TIME ( #191, #328 ) ;
#194 = ORIENTED_EDGE ( 'NONE', *, *, #99, .F. ) ;
#195 = CIRCLE ( 'NONE', #79, 6.349999999999999645 ) ;
#196 = DIRECTION ( 'NONE',  ( 0.000000000000000000, 0.000000000000000000, 1.000000000000000000 ) ) ;
#197 = DIRECTION ( 'NONE',  ( -1.000000000000000000, -0.000000000000000000, -0.000000000000000000 ) ) ;
#198 = CARTESIAN_POINT ( 'NONE',  ( 3.000000000000000000, 0.000000000000000000, 0.000000000000000000 ) ) ;
#199 = DIRECTION ( 'NONE',  ( 0.000000000000000000, 0.000000000000000000, -1.000000000000000000 ) ) ;
#200 = CARTESIAN_POINT ( 'NONE',  ( -1.614212418857619014, 0.000000000000000000, 0.000000000000000000 ) ) ;
#201 = DIRECTION ( 'NONE',  ( -1.000000000000000000, -0.000000000000000000, -0.000000000000000000 ) ) ;
#202 = PLANE ( 'NONE',  #118 ) ;
#203 = DIRECTION ( 'NONE',  ( -0.000000000000000000, 0.000000000000000000, 1.000000000000000000 ) ) ;
#204 = ORIENTED_EDGE ( 'NONE', *, *, #304, .F. ) ;
#205 = ORIENTED_EDGE ( 'NONE', *, *, #30, .F. ) ;
#206 = EDGE_LOOP ( 'NONE', ( #205, #335 ) ) ;
#207 = AXIS2_PLACEMENT_3D ( 'NONE', #139, #175, #272 ) ;
#208 = VERTEX_POINT ( 'NONE', #277 ) ;
#209 = EDGE_CURVE ( 'NONE', #184, #141, #151, .T. ) ;
#210 = PERSON_AND_ORGANIZATION ( #190, #39 ) ;
#211 = ADVANCED_FACE ( 'NONE', ( #226 ), #330, .F. ) ;
#212 = EDGE_LOOP ( 'NONE', ( #323, #194 ) ) ;
#213 = PERSON_AND_ORGANIZATION_ROLE ( 'design_owner' ) ;
#214 = ORIENTED_EDGE ( 'NONE', *, *, #16, .T. ) ;
#215 = AXIS2_PLACEMENT_3D ( 'NONE', #144, #242, #117 ) ;
#216 = COORDINATED_UNIVERSAL_TIME_OFFSET ( 8, 0, .AHEAD. ) ;
#217 = PERSON_AND_ORGANIZATION ( #190, #39 ) ;
#218 = VERTEX_POINT ( 'NONE', #70 ) ;
#219 = PRODUCT_DEFINITION_SHAPE ( 'NONE', 'NONE',  #324 ) ;
#220 = APPROVAL_STATUS ( 'not_yet_approved' ) ;
#221 = CC_DESIGN_APPROVAL ( #328, ( #229 ) ) ;
#222 = LINE ( 'NONE', #88, #21 ) ;
#223 = DIRECTION ( 'NONE',  ( 0.000000000000000000, 0.000000000000000000, 1.000000000000000000 ) ) ;
#224 = CARTESIAN_POINT ( 'NONE',  ( 3.000000000000000000, 0.000000000000000000, 12.69999999999999929 ) ) ;
#225 = LOCAL_TIME ( 17, 6, 30.00000000000000000, #6 ) ;
#226 = FACE_OUTER_BOUND ( 'NONE', #252, .T. ) ;
#227 = DIRECTION ( 'NONE',  ( 0.000000000000000000, 0.000000000000000000, 1.000000000000000000 ) ) ;
#228 = CARTESIAN_POINT ( 'NONE',  ( 3.000000000000000888, 0.000000000000000000, 0.000000000000000000 ) ) ;
#229 = PRODUCT_DEFINITION_FORMATION_WITH_SPECIFIED_SOURCE ( 'ANY', '', #159, .NOT_KNOWN. ) ;
#230 = EDGE_CURVE ( 'NONE', #231, #47, #158, .T. ) ;
#231 = VERTEX_POINT ( 'NONE', #98 ) ;
#232 = EDGE_CURVE ( 'NONE', #5, #208, #148, .T. ) ;
#233 = DIRECTION ( 'NONE',  ( 0.000000000000000000, 0.000000000000000000, 1.000000000000000000 ) ) ;
#234 = ORIENTED_EDGE ( 'NONE', *, *, #271, .T. ) ;
#235 = DIRECTION ( 'NONE',  ( -1.000000000000000000, -0.000000000000000000, -0.000000000000000000 ) ) ;
#236 =( NAMED_UNIT ( * ) PLANE_ANGLE_UNIT ( ) SI_UNIT ( $, .RADIAN. ) );
#237 = APPROVAL_ROLE ( '' ) ;
#238 = PERSON_AND_ORGANIZATION_ROLE ( 'creator' ) ;
#239 = AXIS2_PLACEMENT_3D ( 'NONE', #145, #42, #152 ) ;
#240 = APPROVAL_ROLE ( '' ) ;
#241 = EDGE_LOOP ( 'NONE', ( #56, #12 ) ) ;
#242 = DIRECTION ( 'NONE',  ( -1.000000000000000000, -0.000000000000000000, -0.000000000000000000 ) ) ;
#243 = AXIS2_PLACEMENT_3D ( 'NONE', #41, #20, #122 ) ;
#244 = FACE_OUTER_BOUND ( 'NONE', #310, .T. ) ;
#245 = DIRECTION ( 'NONE',  ( -1.000000000000000000, -0.000000000000000000, -0.000000000000000000 ) ) ;
#246 = DIRECTION ( 'NONE',  ( 0.000000000000000000, 0.000000000000000000, 1.000000000000000000 ) ) ;
#247 = UNCERTAINTY_MEASURE_WITH_UNIT (LENGTH_MEASURE( 1.000000000000000082E-05 ), #255, 'distance_accuracy_value', 'NONE');
#248 = AXIS2_PLACEMENT_3D ( 'NONE', #329, #171, #64 ) ;
#249 = FACE_BOUND ( 'NONE', #206, .T. ) ;
#250 = VECTOR ( 'NONE', #105, 1000.000000000000000 ) ;
#251 = FACE_OUTER_BOUND ( 'NONE', #241, .T. ) ;
#252 = EDGE_LOOP ( 'NONE', ( #168, #73, #7, #204 ) ) ;
#253 = CIRCLE ( 'NONE', #48, 12.69999999999999929 ) ;
#254 = CARTESIAN_POINT ( 'NONE',  ( -1.614212418857619014, 7.776507174585692163E-16, -6.349999999999999645 ) ) ;
#255 =( LENGTH_UNIT ( ) NAMED_UNIT ( * ) SI_UNIT ( .MILLI., .METRE. ) );
#256 = DIRECTION ( 'NONE',  ( 0.000000000000000000, 0.000000000000000000, 1.000000000000000000 ) ) ;
#257 = ORIENTED_EDGE ( 'NONE', *, *, #331, .T. ) ;
#258 = AXIS2_PLACEMENT_3D ( 'NONE', #154, #285, #157 ) ;
#259 = PERSON_AND_ORGANIZATION ( #190, #39 ) ;
#260 = CC_DESIGN_DATE_AND_TIME_ASSIGNMENT ( #8, #109, ( #324 ) ) ;
#261 = FACE_OUTER_BOUND ( 'NONE', #156, .T. ) ;
#262 = CALENDAR_DATE ( 2020, 22, 12 ) ;
#263 = ORIENTED_EDGE ( 'NONE', *, *, #180, .F. ) ;
#264 = PERSON_AND_ORGANIZATION ( #190, #39 ) ;
#265 = ADVANCED_FACE ( 'NONE', ( #251, #4 ), #202, .F. ) ;
#266 = EDGE_LOOP ( 'NONE', ( #214, #130, #134, #308 ) ) ;
#267 = CIRCLE ( 'NONE', #186, 6.349999999999999645 ) ;
#268 = CALENDAR_DATE ( 2020, 22, 12 ) ;
#269 = ORIENTED_EDGE ( 'NONE', *, *, #62, .T. ) ;
#270 = DIRECTION ( 'NONE',  ( -1.000000000000000000, -0.000000000000000000, -0.000000000000000000 ) ) ;
#271 = EDGE_CURVE ( 'NONE', #141, #315, #306, .T. ) ;
#272 = DIRECTION ( 'NONE',  ( 0.000000000000000000, 0.000000000000000000, 1.000000000000000000 ) ) ;
#273 = AXIS2_PLACEMENT_3D ( 'NONE', #14, #298, #60 ) ;
#274 = SECURITY_CLASSIFICATION ( '', '', #13 ) ;
#275 = DIRECTION ( 'NONE',  ( -1.000000000000000000, -0.000000000000000000, -0.000000000000000000 ) ) ;
#276 = PLANE ( 'NONE',  #243 ) ;
#277 = CARTESIAN_POINT ( 'NONE',  ( -1.500000000000000444, 0.000000000000000000, 6.349999999999999645 ) ) ;
#278 = CIRCLE ( 'NONE', #282, 12.69999999999999929 ) ;
#279 = CARTESIAN_POINT ( 'NONE',  ( -1.500000000000000444, 6.349999999999999645, 0.000000000000000000 ) ) ;
#280 = AXIS2_PLACEMENT_3D ( 'NONE', #49, #133, #178 ) ;
#281 = CARTESIAN_POINT ( 'NONE',  ( -1.614212418857619014, 0.000000000000000000, 6.349999999999999645 ) ) ;
#282 = AXIS2_PLACEMENT_3D ( 'NONE', #198, #300, #61 ) ;
#283 = ORIENTED_EDGE ( 'NONE', *, *, #30, .T. ) ;
#284 =( GEOMETRIC_REPRESENTATION_CONTEXT ( 3 ) GLOBAL_UNCERTAINTY_ASSIGNED_CONTEXT ( ( #247 ) ) GLOBAL_UNIT_ASSIGNED_CONTEXT ( ( #255, #236, #131 ) ) REPRESENTATION_CONTEXT ( 'NONE', 'WORKASPACE' ) );
#285 = DIRECTION ( 'NONE',  ( 1.000000000000000000, 0.000000000000000000, 0.000000000000000000 ) ) ;
#286 = ADVANCED_FACE ( 'NONE', ( #183 ), #51, .F. ) ;
#287 = EDGE_CURVE ( 'NONE', #9, #47, #162, .T. ) ;
#288 = DATE_AND_TIME ( #165, #317 ) ;
#289 = EDGE_LOOP ( 'NONE', ( #263, #160, #25, #102 ) ) ;
#290 = CLOSED_SHELL ( 'NONE', ( #293, #211, #161, #52, #69, #286, #182, #153, #265, #107 ) ) ;
#291 = DATE_AND_TIME ( #135, #225 ) ;
#292 = CYLINDRICAL_SURFACE ( 'NONE', #207, 6.349999999999999645 ) ;
#293 = ADVANCED_FACE ( 'NONE', ( #46 ), #129, .T. ) ;
#294 = EDGE_LOOP ( 'NONE', ( #234, #37 ) ) ;
#295 = DIRECTION ( 'NONE',  ( 1.000000000000000000, 0.000000000000000000, 0.000000000000000000 ) ) ;
#296 = CARTESIAN_POINT ( 'NONE',  ( 1.500000000000000888, 7.776507174585692163E-16, -6.349999999999999645 ) ) ;
#297 = CC_DESIGN_SECURITY_CLASSIFICATION ( #274, ( #229 ) ) ;
#298 = DIRECTION ( 'NONE',  ( -1.000000000000000000, 0.000000000000000000, -0.000000000000000000 ) ) ;
#299 = CYLINDRICAL_SURFACE ( 'NONE', #91, 12.69999999999999929 ) ;
#300 = DIRECTION ( 'NONE',  ( -1.000000000000000000, -0.000000000000000000, -0.000000000000000000 ) ) ;
#301 = AXIS2_PLACEMENT_3D ( 'NONE', #279, #43, #199 ) ;
#302 = APPROVAL_PERSON_ORGANIZATION ( #217, #113, #76 ) ;
#303 = FACE_OUTER_BOUND ( 'NONE', #294, .T. ) ;
#304 = EDGE_CURVE ( 'NONE', #208, #1, #177, .T. ) ;
#305 = DIRECTION ( 'NONE',  ( -1.000000000000000000, 0.000000000000000000, -0.000000000000000000 ) ) ;
#306 = CIRCLE ( 'NONE', #17, 12.69999999999999929 ) ;
#307 = CARTESIAN_POINT ( 'NONE',  ( -1.614212418857619014, 0.000000000000000000, 0.000000000000000000 ) ) ;
#308 = ORIENTED_EDGE ( 'NONE', *, *, #209, .F. ) ;
#309 = EDGE_LOOP ( 'NONE', ( #257, #114 ) ) ;
#310 = EDGE_LOOP ( 'NONE', ( #86, #3 ) ) ;
#311 = ORIENTED_EDGE ( 'NONE', *, *, #62, .F. ) ;
#312 = PERSON_AND_ORGANIZATION ( #190, #39 ) ;
#313 = VERTEX_POINT ( 'NONE', #101 ) ;
#314 = COORDINATED_UNIVERSAL_TIME_OFFSET ( 8, 0, .AHEAD. ) ;
#315 = VERTEX_POINT ( 'NONE', #31 ) ;
#316 = CIRCLE ( 'NONE', #215, 6.349999999999999645 ) ;
#317 = LOCAL_TIME ( 17, 6, 30.00000000000000000, #111 ) ;
#318 = PERSON_AND_ORGANIZATION_ROLE ( 'creator' ) ;
#319 = ORIENTED_EDGE ( 'NONE', *, *, #304, .T. ) ;
#320 = CARTESIAN_POINT ( 'NONE',  ( -2.999999999999999556, 0.000000000000000000, 6.349999999999999645 ) ) ;
#321 = APPROVAL_DATE_TIME ( #291, #333 ) ;
#322 = AXIS2_PLACEMENT_3D ( 'NONE', #95, #201, #100 ) ;
#323 = ORIENTED_EDGE ( 'NONE', *, *, #287, .F. ) ;
#324 = PRODUCT_DEFINITION ( 'UNKNOWN', '', #229, #332 ) ;
#325 = DIRECTION ( 'NONE',  ( -1.000000000000000000, -0.000000000000000000, -0.000000000000000000 ) ) ;
#326 = VECTOR ( 'NONE', #96, 1000.000000000000000 ) ;
#327 = APPLICATION_CONTEXT ( 'configuration controlled 3d designs of mechanical parts and assemblies' ) ;
#328 = APPROVAL ( #35, 'UNSPECIFIED' ) ;
#329 = CARTESIAN_POINT ( 'NONE',  ( 1.500000000000000888, 0.000000000000000000, 0.000000000000000000 ) ) ;
#330 = CYLINDRICAL_SURFACE ( 'NONE', #322, 6.349999999999999645 ) ;
#331 = EDGE_CURVE ( 'NONE', #128, #231, #334, .T. ) ;
#332 = DESIGN_CONTEXT ( 'detailed design', #327, 'design' ) ;
#333 = APPROVAL ( #140, 'UNSPECIFIED' ) ;
#334 = CIRCLE ( 'NONE', #92, 6.349999999999999645 ) ;
#335 = ORIENTED_EDGE ( 'NONE', *, *, #121, .F. ) ;
ENDSEC;
END-ISO-10303-21;
